Monday, May 28, 2007

Izinkan Ku Pergi - Kaer Azmi (AF2)



Tabbed by: Zairul.Com a.k.a Semb

Subject:
Kaer Azami (AF2) - Izinkan Ku Pergi

Chords guide :

Cm Cm7/G C#m7(b5) E9sus4/A E Em Em/C# F Fm F# F#/Bb F#m7
e|--3---3------0---------2---------0---0----0------1---1----2----x------0------|
B|--4---4------5---------3---------0---0----0------1---1----2----2------2------|
G|--5---3------4---------2---------1---0----0------2---1----3----3------2------|
D|--5---5------5---------2---------2---2----2------3---3----4----4------2------|
A|--3---3------4---------0---------2---2----4------3---3----4----1------x------|
E|--x---3------0---------x---------0---0----0------1---1----2----x------2------|


G Gm7 G13 G#13 A A/G Am Bb Bm Bm7/F# B
e|--3------x------0------x------0------x------0------1-----2-----2-------2-----|
B|--3------3------3------4------2------2------1------3-----3-----3-------4-----|
G|--4------3------4------5------2------2------2------3-----4-----2-------4-----|
D|--5------3------4------5------2------2------2------3-----4-----4-------4-----|
A|--5------x------x------x------0------0------0------1-----2-----2-------2-----|
B|--3------3------3------4------x------3------x------x-----x-----2-------x-----|



[Intro]

G Em A Bm G Em F#


[Verse 1]
Bm F#/Bb
Sinaran mata cerita segalanya

E9sus4/A G
Duka lara terpendam memori semalam

Em/C# Bm F#/Bb
Tinggal segala cinta tiada kembalinya

E9sus4/A G A/G
Abadi kasih kita kau bawa bersama

F#m7 B Em
Mimpi indah mekar saat cinta bersemi

C#m7(b5) F#
Sedetik asmara syurga selamanya


[Chorus 1]
Bm E A
Pergilah rinduku hilangkan dirimu

Bm7/F# G13 Em F#
Tak sanggup menanggung derita di kalbuku

Bm E A
Pergilah sayangku bermula semula

Bm7/F# G13 F#m7 Em F# Bm
Semangat cintaku membara kerana dia tiada niatku


[Verse 2]
Bm F#/Bb
Tersemat jiwa setia bersamanya

E9sus4/A G A/G
Cinta murni berdua beribu tahunnya

F#m7 B Em
Mimpi indah mekar saat cinta bersemi

C#m7(b5) F#
Sedetik asmara syurga selamanya


[Chorus 2]
Bm E A
Pergilah rinduku hilangkan dirimu

Bm7/F# G13 Em F#
Tak sanggup menanggung derita di kalbuku

Bm E A
Pergilah sayangku bermula semula

Bm7/F# G13 F#m7 Em F# G
Semangat cintaku membara kerana dia tiada niatku


[Strings] Cm F Bb Cm7/G G#13 Fm G


[Chorus 3]
Cm F Bb
Oh pergilah sayangku bermula semula

Cm7/G G#13 Gm7 Fm G Cm
Semangat cintaku membara kerana dia tiada niatku

G#13 Gm7 Fm G Cm
Maafkan daku duhai kasihi izinkan ku pergi

Komen Aku: Lagu nih memula aku nak carik sendiri... memang tak dapat la... then ntah mcm mana leh dapat lak... dari website www.zairul.com ... nak mainkan memula.. banyak sangat chord yang aku tak pernah jumpa... terkucil sana sini... tapi last sekali dapat la jugak aku cuba test try guna chord yang aku cilok dari website zairul nih... tu pun takde la lancar sangat... nak terkucil jerr...

1 comment:

Th3An0nym0us said...

lagu ni best...one of my fav song...good job bro..